0
SECTION
2
HEADER
9
$INSUNITS
70
4
9
$ACADVER
1
AC1014
9
$HANDSEED
5
FFFF
0
ENDSEC
0
SECTION
2
TABLES
0
TABLE
2
VPORT
5
8
100
AcDbSymbolTable
0
ENDTAB
0
TABLE
2
LTYPE
5
5
100
AcDbSymbolTable
0
LTYPE
5
14
100
AcDbSymbolTableRecord
100
AcDbLinetypeTableRecord
2
BYBLOCK
70
0
0
LTYPE
5
15
100
AcDbSymbolTableRecord
100
AcDbLinetypeTableRecord
2
BYLAYER
70
0
0
ENDTAB
0
TABLE
2
LAYER
5
2
100
AcDbSymbolTable
70
2
0
LAYER
5
50
100
AcDbSymbolTableRecord
100
AcDbLayerTableRecord
2
0
70
0
6
CONTINUOUS
0
ENDTAB
0
TABLE
2
STYLE
5
3
100
AcDbSymbolTable
70
1
0
STYLE
5
11
100
AcDbSymbolTableRecord
100
AcDbTextStyleTableRecord
2
STANDARD
70
0
0
ENDTAB
0
TABLE
2
VIEW
5
6
100
AcDbSymbolTable
70
0
0
ENDTAB
0
TABLE
2
UCS
5
7
100
AcDbSymbolTable
70
0
0
ENDTAB
0
TABLE
2
APPID
5
9
100
AcDbSymbolTable
70
2
0
APPID
5
12
100
AcDbSymbolTableRecord
100
AcDbRegAppTableRecord
2
ACAD
70
0
0
ENDTAB
0
TABLE
2
DIMSTYLE
5
A
100
AcDbSymbolTable
70
1
0
ENDTAB
0
TABLE
2
BLOCK_RECORD
5
1
100
AcDbSymbolTable
70
1
0
BLOCK_RECORD
5
1F
100
AcDbSymbolTableRecord
100
AcDbBlockTableRecord
2
*MODEL_SPACE
0
BLOCK_RECORD
5
1B
100
AcDbSymbolTableRecord
100
AcDbBlockTableRecord
2
*PAPER_SPACE
0
ENDTAB
0
ENDSEC
0
SECTION
2
BLOCKS
0
BLOCK
5
20
100
AcDbEntity
100
AcDbBlockBegin
2
*MODEL_SPACE
0
ENDBLK
5
21
100
AcDbEntity
100
AcDbBlockEnd
0
BLOCK
5
1C
100
AcDbEntity
100
AcDbBlockBegin
2
*PAPER_SPACE
0
ENDBLK
5
1D
100
AcDbEntity
100
AcDbBlockEnd
0
ENDSEC
0
SECTION
2
ENTITIES
0
LWPOLYLINE
5
100
100
AcDbEntity
8
0
100
AcDbPolyline
90
8
70
1
43
0.0
10
-25.650002670288067
20
70.4091443914633
10
-25.650002670288067
20
70.542855608536712
42
0.38273390182474781
10
-26.122525489895089
20
71.069729762138948
10
-69.062525489895108
20
75.75409339850259
42
0.44640989662628744
10
-69.65000267028806
20
75.22721924490034
10
-69.650002670288075
20
75.093508027826928
42
0.3827339018247502
10
-69.177479850681038
20
74.566633874224692
10
-26.237479850681037
20
69.882270237861064
42
0.44640989662628994
0
LWPOLYLINE
5
101
100
AcDbEntity
8
0
100
AcDbPolyline
90
8
70
1
43
0.0
10
-25.650002670288067
20
41.13641711873602
10
-25.650002670288067
20
41.270128335809432
42
0.38273390182474781
10
-26.122525489895089
20
41.797002489411675
10
-69.062525489895108
20
46.48136612577531
42
0.44640989662628744
10
-69.65000267028806
20
45.954491972173066
10
-69.650002670288075
20
45.820780755099655
42
0.3827339018247502
10
-69.177479850681038
20
45.293906601497412
10
-26.237479850681034
20
40.609542965133784
42
0.44640989662628744
0
LWPOLYLINE
5
102
100
AcDbEntity
8
0
100
AcDbPolyline
90
8
70
1
43
0.0
10
-25.650002670288067
20
66.227326209645113
10
-25.650002670288067
20
66.361037426718525
42
0.38273390182474354
10
-26.122525489895079
20
66.887911580320775
10
-69.062525489895108
20
71.572275216684403
42
0.44640989662628744
10
-69.65000267028806
20
71.045401063082167
10
-69.650002670288075
20
70.911689846008741
42
0.3827339018247502
10
-69.177479850681038
20
70.384815692406505
10
-26.237479850681034
20
65.700452056042863
42
0.44640989662628744
0
LWPOLYLINE
5
103
100
AcDbEntity
8
0
100
AcDbPolyline
90
8
70
1
43
0.0
10
-25.650002670288067
20
36.95459893691784
10
-25.650002670288067
20
37.088310153991259
42
0.38273390182474781
10
-26.122525489895089
20
37.615184307593495
10
-69.062525489895108
20
42.29954794395713
42
0.44640989662628744
10
-69.65000267028806
20
41.772673790354887
10
-69.650002670288075
20
41.638962573281468
42
0.38273390182474964
10
-69.177479850681038
20
41.112088419679232
10
-26.237479850681037
20
36.427724783315604
42
0.44640989662629021
0
LWPOLYLINE
5
104
100
AcDbEntity
8
0
100
AcDbPolyline
90
8
70
1
43
0.0
10
-25.650002670288067
20
53.681871664190567
10
-25.650002670288067
20
53.815582881263985
42
0.38273390182474781
10
-26.122525489895089
20
54.342457034866229
10
-69.062525489895108
20
59.026820671229856
42
0.44640989662628744
10
-69.65000267028806
20
58.49994651762762
10
-69.650002670288075
20
58.366235300554202
42
0.3827339018247507
10
-69.177479850681038
20
57.839361146951951
10
-26.237479850681037
20
53.154997510588331
42
0.44640989662628994
0
LWPOLYLINE
5
105
100
AcDbEntity
8
0
100
AcDbPolyline
90
8
70
1
43
0.0
10
-25.650002670288067
20
49.50005348237238
10
-25.650002670288067
20
49.633764699445805
42
0.38273390182475309
10
-26.122525489895096
20
50.160638853048056
10
-69.062525489895108
20
54.845002489411677
42
0.44640989662628744
10
-69.65000267028806
20
54.318128335809433
10
-69.650002670288075
20
54.184417118736022
42
0.3827339018247502
10
-69.177479850681038
20
53.657542965133786
10
-26.237479850681037
20
48.973179328770144
42
0.44640989662628994
0
LWPOLYLINE
5
106
100
AcDbEntity
8
0
100
AcDbPolyline
90
8
70
1
43
0.0
10
-25.650002670288067
20
32.77278075509966
10
-25.650002670288067
20
32.906491972173079
42
0.38273390182474304
10
-26.122525489895079
20
33.433366125775322
10
-69.062525489895108
20
38.11772976213895
42
0.44640989662628766
10
-69.65000267028806
20
37.590855608536714
10
-69.650002670288075
20
37.457144391463288
42
0.38273390182474992
10
-69.177479850681038
20
36.930270237861052
10
-26.237479850681037
20
32.245906601497424
42
0.44640989662629021
0
LWPOLYLINE
5
107
100
AcDbEntity
8
0
100
AcDbPolyline
90
8
70
1
43
0.0
10
-25.650002670288067
20
45.3182353005542
10
-25.650002670288067
20
45.451946517627619
42
0.38273390182474781
10
-26.122525489895089
20
45.978820671229855
10
-69.062525489895108
20
50.66318430759349
42
0.44640989662628744
10
-69.65000267028806
20
50.136310153991246
10
-69.650002670288075
20
50.002598936917835
42
0.3827339018247502
10
-69.177479850681038
20
49.475724783315592
10
-26.237479850681037
20
44.791361146951957
42
0.44640989662628994
0
LWPOLYLINE
5
108
100
AcDbEntity
8
0
100
AcDbPolyline
90
8
70
1
43
0.0
10
-26.122525489895089
20
75.251547943957149
10
-69.062525489895108
20
79.935911580320777
42
0.44640989662628688
10
-69.65000267028806
20
79.409037426718527
10
-69.650002670288075
20
79.275326209645115
42
0.3827339018247502
10
-69.177479850681038
20
78.748452056042865
10
-26.237479850681037
20
74.064088419679237
42
0.44640989662628994
10
-25.650002670288067
20
74.590962573281473
10
-25.65000267028806
20
74.724673790354899
42
0.38273390182474831
0
LWPOLYLINE
5
109
100
AcDbEntity
8
0
100
AcDbPolyline
90
8
70
1
43
0.0
10
-25.650002670288067
20
62.045508027826926
10
-25.650002670288067
20
62.179219244900345
42
0.38273390182474831
10
-26.122525489895089
20
62.706093398502595
10
-69.062525489895108
20
67.390457034866216
42
0.44640989662628744
10
-69.65000267028806
20
66.86358288126398
10
-69.650002670288075
20
66.729871664190568
42
0.3827339018247507
10
-69.177479850681038
20
66.202997510588318
10
-26.237479850681037
20
61.51863387422469
42
0.44640989662628994
0
LWPOLYLINE
5
110
100
AcDbEntity
8
0
100
AcDbPolyline
90
8
70
1
43
0.0
10
-25.650002670288067
20
28.590962573281473
10
-25.650002670288067
20
28.724673790354892
42
0.38273390182474754
10
-26.122525489895089
20
29.251547943957128
10
-69.062525489895108
20
33.935911580320763
42
0.44640989662628766
10
-69.65000267028806
20
33.409037426718527
10
-69.650002670288075
20
33.275326209645101
42
0.38273390182474964
10
-69.177479850681038
20
32.748452056042872
10
-26.237479850681034
20
28.064088419679237
42
0.44640989662628766
0
LWPOLYLINE
5
111
100
AcDbEntity
8
0
100
AcDbPolyline
90
8
70
1
43
0.0
10
-25.650002670288067
20
57.863689846008754
10
-25.650002670288067
20
57.997401063082165
42
0.38273390182474831
10
-26.122525489895089
20
58.524275216684416
10
-69.062525489895108
20
63.208638853048036
42
0.44640989662628744
10
-69.65000267028806
20
62.681764699445793
10
-69.650002670288075
20
62.548053482372381
42
0.3827339018247502
10
-69.177479850681038
20
62.021179328770145
10
-26.237479850681037
20
57.33681569240651
42
0.44640989662628994
0
LWPOLYLINE
5
112
100
AcDbEntity
8
0
100
AcDbPolyline
90
36
70
1
43
0.0
10
-82.600002670288063
20
113.10000000000001
10
-57.40000267028806
20
113.10000000000001
10
-57.40000267028806
20
110.09999999999999
10
-37.90000267028806
20
110.09999999999999
10
-37.900002670288053
20
113.10000000000001
10
-12.700002670288059
20
113.10000000000001
10
-12.700002670288058
20
110.09999999999999
10
2.299997329711946
20
110.09999999999999
10
2.299997329711938
20
90.099999999999994
10
5.2999973297119389
20
90.099999999999994
10
5.2999973297119389
20
64.900000000000006
10
2.299997329711938
20
64.900000000000006
10
2.299997329711938
20
42.100000000000009
10
5.2999973297119389
20
42.100000000000009
10
5.2999973297119389
20
16.900000000000009
10
2.299997329711938
20
16.900000000000009
10
2.2999973297119447
20
-0.10000000000000002
10
-12.700002670288066
20
-0.10000000000000009
10
-12.700002670288066
20
-3.1000000000000005
10
-37.90000267028806
20
-3.1000000000000005
10
-37.90000267028806
20
-0.10000000000000002
10
-57.40000267028806
20
-0.10000000000000009
10
-57.40000267028806
20
-3.1000000000000005
10
-82.600002670288063
20
-3.1000000000000005
10
-82.600002670288063
20
-0.099999999999998118
10
-97.600002670288063
20
-0.099999999999711431
10
-97.600002670288077
20
16.900000000000297
10
-100.60000267028806
20
16.900000000000297
10
-100.60000267028809
20
42.100000000000293
10
-97.600002670288092
20
42.100000000000293
10
-97.60000267028812
20
64.90000000000029
10
-100.60000267028811
20
64.90000000000029
10
-100.60000267028813
20
90.100000000000279
10
-97.600002670288134
20
90.100000000000279
10
-97.600002670288148
20
110.10000000000028
10
-82.600002670288063
20
110.09999999999999
0
ENDSEC
0
SECTION
2
OBJECTS
0
DICTIONARY
5
C
100
AcDbDictionary
3
ACAD_GROUP
350
D
3
ACAD_MLINESTYLE
350
17
0
DICTIONARY
5
D
100
AcDbDictionary
0
DICTIONARY
5
1A
330
C
100
AcDbDictionary
0
DICTIONARY
5
17
100
AcDbDictionary
0
ENDSEC
0
EOF
